ISO-10303-21;
HEADER;
FILE_DESCRIPTION (( 'STEP AP203' ),
    '1' );
FILE_NAME ('Q-ZDWWP-R41-25.4-1064-SHM.STEP',
    '2020-12-22T09:02:32',
    ( '' ),
    ( '' ),
    'SwSTEP 2.0',
    'SolidWorks 2020',
    '' );
FILE_SCHEMA (( 'CONFIG_CONTROL_DESIGN' ));
ENDSEC;

DATA;
#1 = FACE_OUTER_BOUND ( 'NONE', #19, .T. ) ;
#2 = DIRECTION ( 'NONE',  ( 1.000000000000000000, 0.000000000000000000, 0.000000000000000000 ) ) ;
#3 = CALENDAR_DATE ( 2020, 22, 12 ) ;
#4 = APPROVAL_ROLE ( '' ) ;
#5 = APPROVAL_PERSON_ORGANIZATION ( #103, #18, #164 ) ;
#6 = APPROVAL_DATE_TIME ( #16, #88 ) ;
#7 = SECURITY_CLASSIFICATION_LEVEL ( 'unclassified' ) ;
#8 = PRODUCT_RELATED_PRODUCT_CATEGORY ( 'detail', '', ( #109 ) ) ;
#9 = ORIENTED_EDGE ( 'NONE', *, *, #128, .T. ) ;
#10 = CALENDAR_DATE ( 2020, 22, 12 ) ;
#11 = DIRECTION ( 'NONE',  ( -1.000000000000000000, -0.000000000000000000, -0.000000000000000000 ) ) ;
#12 = DIRECTION ( 'NONE',  ( 0.000000000000000000, 0.000000000000000000, 1.000000000000000000 ) ) ;
#13 = CARTESIAN_POINT ( 'NONE',  ( -3.000000000000000000, 0.000000000000000000, 0.000000000000000000 ) ) ;
#14 = DIRECTION ( 'NONE',  ( -1.000000000000000000, 0.000000000000000000, -0.000000000000000000 ) ) ;
#15 = CALENDAR_DATE ( 2020, 22, 12 ) ;
#16 = DATE_AND_TIME ( #123, #89 ) ;
#17 = CC_DESIGN_APPROVAL ( #18, ( #36 ) ) ;
#18 = APPROVAL ( #101, 'UNSPECIFIED' ) ;
#19 = EDGE_LOOP ( 'NONE', ( #9, #112 ) ) ;
#20 = ADVANCED_FACE ( 'NONE', ( #158 ), #78, .T. ) ;
#21 = EDGE_LOOP ( 'NONE', ( #81, #95, #82, #69 ) ) ;
#22 = DIRECTION ( 'NONE',  ( 0.000000000000000000, 0.000000000000000000, 1.000000000000000000 ) ) ;
#23 = ADVANCED_FACE ( 'NONE', ( #1 ), #161, .F. ) ;
#24 = CARTESIAN_POINT ( 'NONE',  ( -1.614212418857619014, 1.836970198721029589E-15, -15.00000000000000000 ) ) ;
#25 = DIRECTION ( 'NONE',  ( 0.000000000000000000, 0.000000000000000000, -1.000000000000000000 ) ) ;
#26 = FACE_OUTER_BOUND ( 'NONE', #56, .T. ) ;
#27 = PERSON_AND_ORGANIZATION ( #126, #33 ) ;
#28 = CLOSED_SHELL ( 'NONE', ( #168, #97, #20, #23 ) ) ;
#29 = SHAPE_DEFINITION_REPRESENTATION ( #80, #70 ) ;
#30 = AXIS2_PLACEMENT_3D ( 'NONE', #132, #14, #99 ) ;
#31 = ORIENTED_EDGE ( 'NONE', *, *, #47, .T. ) ;
#32 = VERTEX_POINT ( 'NONE', #37 ) ;
#33 = ORGANIZATION ( 'UNSPECIFIED', 'UNSPECIFIED', '' ) ;
#34 = DIRECTION ( 'NONE',  ( 0.000000000000000000, 0.000000000000000000, 1.000000000000000000 ) ) ;
#35 = EDGE_CURVE ( 'NONE', #144, #42, #163, .T. ) ;
#36 = PRODUCT_DEFINITION_FORMATION_WITH_SPECIFIED_SOURCE ( 'ANY', '', #109, .NOT_KNOWN. ) ;
#37 = CARTESIAN_POINT ( 'NONE',  ( -3.000000000000000000, 1.836970198721029589E-15, -15.00000000000000000 ) ) ;
#38 = PERSON_AND_ORGANIZATION_ROLE ( 'creator' ) ;
#39 = APPROVAL ( #87, 'UNSPECIFIED' ) ;
#40 = PERSON_AND_ORGANIZATION ( #126, #33 ) ;
#41 = ORIENTED_EDGE ( 'NONE', *, *, #51, .F. ) ;
#42 = VERTEX_POINT ( 'NONE', #75 ) ;
#43 = CC_DESIGN_PERSON_AND_ORGANIZATION_ASSIGNMENT ( #40, #50, ( #64 ) ) ;
#44 = CARTESIAN_POINT ( 'NONE',  ( -3.000000000000000888, 12.69999999999999929, 0.000000000000000000 ) ) ;
#45 = CIRCLE ( 'NONE', #152, 15.00000000000000000 ) ;
#46 =( NAMED_UNIT ( * ) SI_UNIT ( $, .STERADIAN. ) SOLID_ANGLE_UNIT ( ) );
#47 = EDGE_CURVE ( 'NONE', #174, #144, #45, .T. ) ;
#48 = CARTESIAN_POINT ( 'NONE',  ( -1.614212418857619014, 0.000000000000000000, 15.00000000000000000 ) ) ;
#49 = DIRECTION ( 'NONE',  ( -1.000000000000000000, -0.000000000000000000, -0.000000000000000000 ) ) ;
#50 = PERSON_AND_ORGANIZATION_ROLE ( 'creator' ) ;
#51 = EDGE_CURVE ( 'NONE', #32, #42, #67, .T. ) ;
#52 = DATE_AND_TIME ( #3, #159 ) ;
#53 = CIRCLE ( 'NONE', #127, 15.00000000000000000 ) ;
#54 = PERSON_AND_ORGANIZATION ( #126, #33 ) ;
#55 = DIRECTION ( 'NONE',  ( 1.000000000000000000, 0.000000000000000000, 0.000000000000000000 ) ) ;
#56 = EDGE_LOOP ( 'NONE', ( #125, #156 ) ) ;
#57 = CC_DESIGN_PERSON_AND_ORGANIZATION_ASSIGNMENT ( #153, #121, ( #36 ) ) ;
#58 = AXIS2_PLACEMENT_3D ( 'NONE', #44, #2, #25 ) ;
#59 = DIRECTION ( 'NONE',  ( 0.000000000000000000, 0.000000000000000000, 1.000000000000000000 ) ) ;
#60 = CC_DESIGN_SECURITY_CLASSIFICATION ( #143, ( #36 ) ) ;
#61 = CARTESIAN_POINT ( 'NONE',  ( 3.000000000000000000, 0.000000000000000000, 15.00000000000000000 ) ) ;
#62 = AXIS2_PLACEMENT_3D ( 'NONE', #142, #117, #98 ) ;
#63 = APPROVAL_DATE_TIME ( #52, #39 ) ;
#64 = PRODUCT_DEFINITION ( 'UNKNOWN', '', #36, #124 ) ;
#65 = APPLICATION_PROTOCOL_DEFINITION ( 'international standard', 'config_control_design', 1994, #150 ) ;
#66 = COORDINATED_UNIVERSAL_TIME_OFFSET ( 8, 0, .AHEAD. ) ;
#67 = CIRCLE ( 'NONE', #110, 15.00000000000000000 ) ;
#68 = DATE_TIME_ROLE ( 'creation_date' ) ;
#69 = ORIENTED_EDGE ( 'NONE', *, *, #35, .F. ) ;
#70 = ADVANCED_BREP_SHAPE_REPRESENTATION ( 'Q-ZDWWP-R41-25.4-1064-SHM', ( #115, #93 ), #86 ) ;
#71 = CARTESIAN_POINT ( 'NONE',  ( 3.000000000000000000, 1.836970198721029589E-15, -15.00000000000000000 ) ) ;
#72 = APPROVAL_PERSON_ORGANIZATION ( #138, #39, #4 ) ;
#73 = AXIS2_PLACEMENT_3D ( 'NONE', #83, #147, #22 ) ;
#74 = PLANE ( 'NONE',  #30 ) ;
#75 = CARTESIAN_POINT ( 'NONE',  ( -3.000000000000000000, 0.000000000000000000, 15.00000000000000000 ) ) ;
#76 = CARTESIAN_POINT ( 'NONE',  ( -3.000000000000000000, 0.000000000000000000, 0.000000000000000000 ) ) ;
#77 = DIRECTION ( 'NONE',  ( 0.000000000000000000, 0.000000000000000000, 1.000000000000000000 ) ) ;
#78 = CYLINDRICAL_SURFACE ( 'NONE', #62, 15.00000000000000000 ) ;
#79 = ORIENTED_EDGE ( 'NONE', *, *, #91, .F. ) ;
#80 = PRODUCT_DEFINITION_SHAPE ( 'NONE', 'NONE',  #64 ) ;
#81 = ORIENTED_EDGE ( 'NONE', *, *, #172, .T. ) ;
#82 = ORIENTED_EDGE ( 'NONE', *, *, #128, .F. ) ;
#83 = CARTESIAN_POINT ( 'NONE',  ( 3.000000000000000000, 0.000000000000000000, 0.000000000000000000 ) ) ;
#84 = LOCAL_TIME ( 17, 2, 32.00000000000000000, #165 ) ;
#85 = DIRECTION ( 'NONE',  ( -1.000000000000000000, -0.000000000000000000, -0.000000000000000000 ) ) ;
#86 =( GEOMETRIC_REPRESENTATION_CONTEXT ( 3 ) GLOBAL_UNCERTAINTY_ASSIGNED_CONTEXT ( ( #141 ) ) GLOBAL_UNIT_ASSIGNED_CONTEXT ( ( #131, #148, #46 ) ) REPRESENTATION_CONTEXT ( 'NONE', 'WORKASPACE' ) );
#87 = APPROVAL_STATUS ( 'not_yet_approved' ) ;
#88 = APPROVAL ( #105, 'UNSPECIFIED' ) ;
#89 = LOCAL_TIME ( 17, 2, 32.00000000000000000, #66 ) ;
#90 = COORDINATED_UNIVERSAL_TIME_OFFSET ( 8, 0, .AHEAD. ) ;
#91 = EDGE_CURVE ( 'NONE', #174, #32, #96, .T. ) ;
#92 = CC_DESIGN_PERSON_AND_ORGANIZATION_ASSIGNMENT ( #54, #94, ( #143 ) ) ;
#93 = AXIS2_PLACEMENT_3D ( 'NONE', #154, #77, #55 ) ;
#94 = PERSON_AND_ORGANIZATION_ROLE ( 'classification_officer' ) ;
#95 = ORIENTED_EDGE ( 'NONE', *, *, #91, .T. ) ;
#96 = LINE ( 'NONE', #24, #134 ) ;
#97 = ADVANCED_FACE ( 'NONE', ( #26 ), #74, .F. ) ;
#98 = DIRECTION ( 'NONE',  ( 0.000000000000000000, 0.000000000000000000, 1.000000000000000000 ) ) ;
#99 = DIRECTION ( 'NONE',  ( -0.000000000000000000, 0.000000000000000000, 1.000000000000000000 ) ) ;
#100 = DIRECTION ( 'NONE',  ( -1.000000000000000000, -0.000000000000000000, -0.000000000000000000 ) ) ;
#101 = APPROVAL_STATUS ( 'not_yet_approved' ) ;
#102 = DATE_TIME_ROLE ( 'classification_date' ) ;
#103 = PERSON_AND_ORGANIZATION ( #126, #33 ) ;
#104 = PERSON_AND_ORGANIZATION ( #126, #33 ) ;
#105 = APPROVAL_STATUS ( 'not_yet_approved' ) ;
#106 = CC_DESIGN_APPROVAL ( #39, ( #64 ) ) ;
#107 = DATE_AND_TIME ( #157, #140 ) ;
#108 = LOCAL_TIME ( 17, 2, 32.00000000000000000, #90 ) ;
#109 = PRODUCT ( 'Q-ZDWWP-R41-25.4-1064-SHM', 'Q-ZDWWP-R41-25.4-1064-SHM', '', ( #137 ) ) ;
#110 = AXIS2_PLACEMENT_3D ( 'NONE', #13, #11, #34 ) ;
#111 = ORIENTED_EDGE ( 'NONE', *, *, #35, .T. ) ;
#112 = ORIENTED_EDGE ( 'NONE', *, *, #51, .T. ) ;
#113 = APPROVAL_PERSON_ORGANIZATION ( #122, #88, #169 ) ;
#114 = CC_DESIGN_DATE_AND_TIME_ASSIGNMENT ( #107, #102, ( #143 ) ) ;
#115 = MANIFOLD_SOLID_BREP ( 'Ðý×', #28 ) ;
#116 = FACE_OUTER_BOUND ( 'NONE', #21, .T. ) ;
#117 = DIRECTION ( 'NONE',  ( -1.000000000000000000, -0.000000000000000000, -0.000000000000000000 ) ) ;
#118 = CARTESIAN_POINT ( 'NONE',  ( -1.614212418857619014, 0.000000000000000000, 0.000000000000000000 ) ) ;
#119 = VECTOR ( 'NONE', #149, 1000.000000000000000 ) ;
#120 = COORDINATED_UNIVERSAL_TIME_OFFSET ( 8, 0, .AHEAD. ) ;
#121 = PERSON_AND_ORGANIZATION_ROLE ( 'design_supplier' ) ;
#122 = PERSON_AND_ORGANIZATION ( #126, #33 ) ;
#123 = CALENDAR_DATE ( 2020, 22, 12 ) ;
#124 = DESIGN_CONTEXT ( 'detailed design', #171, 'design' ) ;
#125 = ORIENTED_EDGE ( 'NONE', *, *, #172, .F. ) ;
#126 = PERSON ( 'UNSPECIFIED', 'UNSPECIFIED', 'UNSPECIFIED', ('UNSPECIFIED'), ('UNSPECIFIED'), ('UNSPECIFIED') ) ;
#127 = AXIS2_PLACEMENT_3D ( 'NONE', #76, #135, #59 ) ;
#128 = EDGE_CURVE ( 'NONE', #42, #32, #53, .T. ) ;
#129 = CARTESIAN_POINT ( 'NONE',  ( 3.000000000000000000, 0.000000000000000000, 0.000000000000000000 ) ) ;
#130 = CC_DESIGN_PERSON_AND_ORGANIZATION_ASSIGNMENT ( #27, #38, ( #36 ) ) ;
#131 =( LENGTH_UNIT ( ) NAMED_UNIT ( * ) SI_UNIT ( .MILLI., .METRE. ) );
#132 = CARTESIAN_POINT ( 'NONE',  ( 3.000000000000000888, 12.69999999999999929, 0.000000000000000000 ) ) ;
#133 = CC_DESIGN_PERSON_AND_ORGANIZATION_ASSIGNMENT ( #104, #139, ( #109 ) ) ;
#134 = VECTOR ( 'NONE', #85, 1000.000000000000000 ) ;
#135 = DIRECTION ( 'NONE',  ( -1.000000000000000000, -0.000000000000000000, -0.000000000000000000 ) ) ;
#136 = CC_DESIGN_APPROVAL ( #88, ( #143 ) ) ;
#137 = MECHANICAL_CONTEXT ( 'NONE', #150, 'mechanical' ) ;
#138 = PERSON_AND_ORGANIZATION ( #126, #33 ) ;
#139 = PERSON_AND_ORGANIZATION_ROLE ( 'design_owner' ) ;
#140 = LOCAL_TIME ( 17, 2, 32.00000000000000000, #173 ) ;
#141 = UNCERTAINTY_MEASURE_WITH_UNIT (LENGTH_MEASURE( 1.000000000000000082E-05 ), #131, 'distance_accuracy_value', 'NONE');
#142 = CARTESIAN_POINT ( 'NONE',  ( -1.614212418857619014, 0.000000000000000000, 0.000000000000000000 ) ) ;
#143 = SECURITY_CLASSIFICATION ( '', '', #7 ) ;
#144 = VERTEX_POINT ( 'NONE', #61 ) ;
#145 = DATE_AND_TIME ( #10, #108 ) ;
#146 = CIRCLE ( 'NONE', #73, 15.00000000000000000 ) ;
#147 = DIRECTION ( 'NONE',  ( -1.000000000000000000, -0.000000000000000000, -0.000000000000000000 ) ) ;
#148 =( NAMED_UNIT ( * ) PLANE_ANGLE_UNIT ( ) SI_UNIT ( $, .RADIAN. ) );
#149 = DIRECTION ( 'NONE',  ( -1.000000000000000000, -0.000000000000000000, -0.000000000000000000 ) ) ;
#150 = APPLICATION_CONTEXT ( 'configuration controlled 3d designs of mechanical parts and assemblies' ) ;
#151 = DATE_AND_TIME ( #15, #84 ) ;
#152 = AXIS2_PLACEMENT_3D ( 'NONE', #129, #49, #12 ) ;
#153 = PERSON_AND_ORGANIZATION ( #126, #33 ) ;
#154 = CARTESIAN_POINT ( 'NONE',  ( 0.000000000000000000, 0.000000000000000000, 0.000000000000000000 ) ) ;
#155 = AXIS2_PLACEMENT_3D ( 'NONE', #118, #100, #175 ) ;
#156 = ORIENTED_EDGE ( 'NONE', *, *, #47, .F. ) ;
#157 = CALENDAR_DATE ( 2020, 22, 12 ) ;
#158 = FACE_OUTER_BOUND ( 'NONE', #160, .T. ) ;
#159 = LOCAL_TIME ( 17, 2, 32.00000000000000000, #120 ) ;
#160 = EDGE_LOOP ( 'NONE', ( #79, #31, #111, #41 ) ) ;
#161 = PLANE ( 'NONE',  #58 ) ;
#162 = CYLINDRICAL_SURFACE ( 'NONE', #155, 15.00000000000000000 ) ;
#163 = LINE ( 'NONE', #48, #119 ) ;
#164 = APPROVAL_ROLE ( '' ) ;
#165 = COORDINATED_UNIVERSAL_TIME_OFFSET ( 8, 0, .AHEAD. ) ;
#166 = CC_DESIGN_DATE_AND_TIME_ASSIGNMENT ( #145, #68, ( #64 ) ) ;
#167 = APPROVAL_DATE_TIME ( #151, #18 ) ;
#168 = ADVANCED_FACE ( 'NONE', ( #116 ), #162, .T. ) ;
#169 = APPROVAL_ROLE ( '' ) ;
#170 = APPLICATION_PROTOCOL_DEFINITION ( 'international standard', 'config_control_design', 1994, #171 ) ;
#171 = APPLICATION_CONTEXT ( 'configuration controlled 3d designs of mechanical parts and assemblies' ) ;
#172 = EDGE_CURVE ( 'NONE', #144, #174, #146, .T. ) ;
#173 = COORDINATED_UNIVERSAL_TIME_OFFSET ( 8, 0, .AHEAD. ) ;
#174 = VERTEX_POINT ( 'NONE', #71 ) ;
#175 = DIRECTION ( 'NONE',  ( 0.000000000000000000, 0.000000000000000000, 1.000000000000000000 ) ) ;
ENDSEC;
END-ISO-10303-21;
